DIAS DE BORRASCA

			  



Intro de Guitarra :(toca acoustico)

   A                C         F?
-----------------------------------
-------2h3p2------------------1----
----2--------2-------0-------3-3---
---2-2--------2-----2-------2---2--   toca 9 veses
-0-----------------3-------0-------
-----------------------------------



   A              F5   C5 D5     
-----------------------------------
-2-222-----------------------------
-2-222-----------333---5--7--------
-2-222-----------333---5--7--------
-0-----00-3030---333---3--5--------
-----------------111---------------

al inocente lo linchan...
en la odisea del rencor el gran inquisidor
en el leal, leal cobijo


   A             D#   D5     
-----------------------------------
-2-22------------------------------
-2-22-----------888-8-7------------
-2-22-----------888-8-7------------
-0--------------666-6-5------------
-----------------------------------

al son de la calumnia 
y el hombre guarecido, el hombre guarecido
de la soledad

 

Regresar a la pagina anterior