DECADENCIA

			  
La decadencia esta prohibida y te estruja fuerte del cuello y no se suelta.


intro                  verso             7x                             
|----------------------||----------------||-----------------------------
|----------------------||*--------------*||-----------------------------
|--5-----5-----5/---5--||*--5--5--5--5--*||-----------------------------
|----------------------||----------------||-----------------------------
                                                                        

                                                                        
------------------------------------------------------------------------
------------------------------------------------------------------------
3--3--3-----5--5--5-----3--3--3--3--3--------------5--5--5--5--5--------
---------------------------------------3--3--5--5-----------------------
                                                                        

                                                                        
||----------------------------------------------------||----------------
||*--------------------------------------------------*||----------------
||*--5--5--5--5--------------5--5--5--5--------------*||----------------
||---------------6--6--6--6--------------6--6--6--6---||----------------
                                                                        

                                                                        
||-------------------------------------||--------------|----------------
||*-----------------------------------*||--------------|----------------
||*--5--5--5--5-----3--3--3-----------*||--------------|----------------
||---------------------------3--3--3---||--------------|----------------
                                                                        

                                                                        
---------------||-----------------------------------||------------------
---------------||-----------------------------------||------------------
5--5--5--5--5--||-----------------------------------||------------------
---------------||--3--3--3--3--3-----5--5--5--5--5--||------------------
                                                                        

                                                                        
------------10-----10-----10-----10-------------------------------------
----------------------------------------7-----7-----7-----7-------------
5--7-----8------8------8------8-----------------------------------------
-------------------------------------5-----5-----5-----5----------------
                                                                        

                                                                        
||----------------------------------------------------||----------------
||*--------------------------------------------------*||----------------
||*--5--5--5--5--5--6--6--6--6-----------5--5--5--5--*||----------------
||------------------------------5--5--5---------------||----------------
                                                                        

                        regreso al principio                            
------------------------------------------||----------------------------
------------------------------------------||----------------------------
5--5--5--5-----3--3--3--3-----5--5--5--5--||----------------------------
------------------------------------------||----------------------------
                                                                        

     solo de bajo                                                       
||----------------------------------------------------------------------
||*-----------------------------------------6--7--8---------------------
||*--5--5--7--7--8--8--7--7--------6--7--8--------------5--5--7--7------
||---------------------------6--8---------------------------------------
                                                                        

                                                                        
-------------------------||---------------------------------------------
------------------------*||---------------------------------------------
8--8--7--7--8--8--7--5--*||---------------------------------------------
-------------------------||---------------------------------------------
                                                                        

     final                                                  3x          
||----------------------------------------------------------||----------
||*--------------------------------------------------------*||----------
||*--5--5--5--5--5--5--5--5--5-----------------------------*||----------
||------------------------------6--6--6--6--6--6--6--6--6---||----------
                                                                        

                                                                        
------------------------------------------------------------------------
------------------------------------------------------------------------
5--5--5--5--3--3--5--5--5-----------------------------------------------
------------------------------------------------------------------------
                                                                        

                                                                        
||----------------------------------------------------------------------
||*---------------------------------------------------------------------
||*--5--5--5--5--5--5--5-----3--3--3--3--3-----------5--7--8--5--5------
||------------------------------------------5--7--8---------------------
                                                                        

                                                                        
----------------||------------------------------------------------------
---------------*||------------------------------------------------------
5--5--5--5--5--*||------------------------------------------------------
----------------||------------------------------------------------------
                                                                        

                                                                        
------------------------------------------------------||----------------
------------------------------------------------------||----------------
6--8-----------------------------------8--7--5--------||----------------
------6-----6--6--6--6--6--6--6--6--6-----------8--6--||----------------

Regresar a la pagina anterior